ISO-10303-21;
HEADER;
FILE_DESCRIPTION (( 'STEP AP203' ),
    '1' );
FILE_NAME ('BK7-LPBSC-10-633.STEP',
    '2020-12-22T03:10:22',
    ( '' ),
    ( '' ),
    'SwSTEP 2.0',
    'SolidWorks 2020',
    '' );
FILE_SCHEMA (( 'CONFIG_CONTROL_DESIGN' ));
ENDSEC;

DATA;
#1 = COORDINATED_UNIVERSAL_TIME_OFFSET ( 8, 0, .AHEAD. ) ;
#2 = CC_DESIGN_SECURITY_CLASSIFICATION ( #295, ( #121 ) ) ;
#3 = CARTESIAN_POINT ( 'NONE',  ( 5.000000000000000888, 5.000000000000001776, -5.000000000000000000 ) ) ;
#4 = APPROVAL_STATUS ( 'not_yet_approved' ) ;
#5 = VECTOR ( 'NONE', #66, 1000.000000000000000 ) ;
#6 = PRODUCT_DEFINITION ( 'UNKNOWN', '', #121, #17 ) ;
#7 = PLANE ( 'NONE',  #78 ) ;
#8 = AXIS2_PLACEMENT_3D ( 'NONE', #79, #133, #234 ) ;
#9 = ORIENTED_EDGE ( 'NONE', *, *, #261, .F. ) ;
#10 = ORIENTED_EDGE ( 'NONE', *, *, #161, .T. ) ;
#11 = VERTEX_POINT ( 'NONE', #97 ) ;
#12 = CARTESIAN_POINT ( 'NONE',  ( 5.000000000000002665, 5.000000000000000000, -5.000000000000000000 ) ) ;
#13 = APPLICATION_PROTOCOL_DEFINITION ( 'international standard', 'config_control_design', 1994, #26 ) ;
#14 = CLOSED_SHELL ( 'NONE', ( #311, #290, #308, #47, #287 ) ) ;
#15 = EDGE_LOOP ( 'NONE', ( #88, #110, #241 ) ) ;
#16 = ORIENTED_EDGE ( 'NONE', *, *, #62, .F. ) ;
#17 = DESIGN_CONTEXT ( 'detailed design', #184, 'design' ) ;
#18 = APPROVAL_DATE_TIME ( #207, #105 ) ;
#19 = CARTESIAN_POINT ( 'NONE',  ( -5.000000000000000888, -4.999999999999998224, 5.000000000000000000 ) ) ;
#20 = APPROVAL_ROLE ( '' ) ;
#21 = ORIENTED_EDGE ( 'NONE', *, *, #317, .T. ) ;
#22 = FACE_OUTER_BOUND ( 'NONE', #86, .T. ) ;
#23 = DIRECTION ( 'NONE',  ( -0.000000000000000000, 0.000000000000000000, -1.000000000000000000 ) ) ;
#24 = DIRECTION ( 'NONE',  ( 0.000000000000000000, -0.000000000000000000, 1.000000000000000000 ) ) ;
#25 = VECTOR ( 'NONE', #99, 1000.000000000000000 ) ;
#26 = APPLICATION_CONTEXT ( 'configuration controlled 3d designs of mechanical parts and assemblies' ) ;
#27 = DIRECTION ( 'NONE',  ( 1.000000000000000000, -4.857225732735059864E-17, 0.000000000000000000 ) ) ;
#28 = AXIS2_PLACEMENT_3D ( 'NONE', #268, #253, #101 ) ;
#29 = DIRECTION ( 'NONE',  ( 0.000000000000000000, 0.000000000000000000, 1.000000000000000000 ) ) ;
#30 = EDGE_CURVE ( 'NONE', #270, #310, #69, .T. ) ;
#31 = ORIENTED_EDGE ( 'NONE', *, *, #265, .T. ) ;
#32 = CC_DESIGN_PERSON_AND_ORGANIZATION_ASSIGNMENT ( #229, #299, ( #121 ) ) ;
#33 = ORIENTED_EDGE ( 'NONE', *, *, #30, .T. ) ;
#34 = AXIS2_PLACEMENT_3D ( 'NONE', #260, #24, #187 ) ;
#35 = ORIENTED_EDGE ( 'NONE', *, *, #134, .F. ) ;
#36 = LINE ( 'NONE', #171, #314 ) ;
#37 = DIRECTION ( 'NONE',  ( -0.000000000000000000, 0.000000000000000000, -1.000000000000000000 ) ) ;
#38 = ORIENTED_EDGE ( 'NONE', *, *, #161, .F. ) ;
#39 = CARTESIAN_POINT ( 'NONE',  ( -5.000000000000000888, -4.999999999999998224, 5.000000000000000000 ) ) ;
#40 = PERSON_AND_ORGANIZATION ( #51, #149 ) ;
#41 = VECTOR ( 'NONE', #95, 1000.000000000000000 ) ;
#42 = DIRECTION ( 'NONE',  ( 1.000000000000000000, -2.220446049250313081E-16, 0.000000000000000000 ) ) ;
#43 = COORDINATED_UNIVERSAL_TIME_OFFSET ( 8, 0, .AHEAD. ) ;
#44 = LINE ( 'NONE', #155, #113 ) ;
#45 = APPROVAL_ROLE ( '' ) ;
#46 = CARTESIAN_POINT ( 'NONE',  ( 5.000000000000000888, 5.000000000000001776, 5.000000000000000000 ) ) ;
#47 = ADVANCED_FACE ( 'NONE', ( #294 ), #232, .T. ) ;
#48 = CARTESIAN_POINT ( 'NONE',  ( -4.999999999999999112, 5.000000000000001776, 5.000000000000000000 ) ) ;
#49 = VECTOR ( 'NONE', #212, 1000.000000000000000 ) ;
#50 = LINE ( 'NONE', #103, #204 ) ;
#51 = PERSON ( 'UNSPECIFIED', 'UNSPECIFIED', 'UNSPECIFIED', ('UNSPECIFIED'), ('UNSPECIFIED'), ('UNSPECIFIED') ) ;
#52 = FACE_OUTER_BOUND ( 'NONE', #196, .T. ) ;
#53 = CARTESIAN_POINT ( 'NONE',  ( 0.000000000000000000, 0.000000000000000000, -5.000000000000000000 ) ) ;
#54 = APPROVAL_PERSON_ORGANIZATION ( #74, #321, #20 ) ;
#55 = APPROVAL_ROLE ( '' ) ;
#56 = DIRECTION ( 'NONE',  ( -1.734723475976807094E-16, -1.000000000000000000, 0.000000000000000000 ) ) ;
#57 = ADVANCED_FACE ( 'NONE', ( #275 ), #168, .F. ) ;
#58 = CLOSED_SHELL ( 'NONE', ( #144, #90, #237, #277, #57 ) ) ;
#59 = DIRECTION ( 'NONE',  ( -1.000000000000000000, 1.734723475976807094E-16, 0.000000000000000000 ) ) ;
#60 = ORIENTED_EDGE ( 'NONE', *, *, #183, .T. ) ;
#61 = EDGE_LOOP ( 'NONE', ( #10, #285, #313 ) ) ;
#62 = EDGE_CURVE ( 'NONE', #286, #170, #44, .T. ) ;
#63 = FACE_OUTER_BOUND ( 'NONE', #87, .T. ) ;
#64 = CARTESIAN_POINT ( 'NONE',  ( -4.999999999999999112, -5.000000000000000000, -5.000000000000000000 ) ) ;
#65 = ORIENTED_EDGE ( 'NONE', *, *, #221, .T. ) ;
#66 = DIRECTION ( 'NONE',  ( 1.000000000000000000, -4.857225732735059864E-17, 0.000000000000000000 ) ) ;
#67 = PERSON_AND_ORGANIZATION ( #51, #149 ) ;
#68 = CC_DESIGN_PERSON_AND_ORGANIZATION_ASSIGNMENT ( #67, #109, ( #165 ) ) ;
#69 = LINE ( 'NONE', #46, #5 ) ;
#70 = VECTOR ( 'NONE', #37, 1000.000000000000000 ) ;
#71 = ORIENTED_EDGE ( 'NONE', *, *, #129, .F. ) ;
#72 = CALENDAR_DATE ( 2020, 22, 12 ) ;
#73 = DIRECTION ( 'NONE',  ( -0.000000000000000000, 0.000000000000000000, -1.000000000000000000 ) ) ;
#74 = PERSON_AND_ORGANIZATION ( #51, #149 ) ;
#75 = DIRECTION ( 'NONE',  ( -0.7071067811865475727, -0.7071067811865474617, 0.000000000000000000 ) ) ;
#76 = DATE_AND_TIME ( #227, #182 ) ;
#77 = LINE ( 'NONE', #3, #49 ) ;
#78 = AXIS2_PLACEMENT_3D ( 'NONE', #140, #263, #293 ) ;
#79 = CARTESIAN_POINT ( 'NONE',  ( 5.000000000000000888, 5.000000000000001776, 5.000000000000000000 ) ) ;
#80 = LINE ( 'NONE', #302, #108 ) ;
#81 = EDGE_CURVE ( 'NONE', #320, #270, #201, .T. ) ;
#82 = CC_DESIGN_DATE_AND_TIME_ASSIGNMENT ( #203, #127, ( #295 ) ) ;
#83 = AXIS2_PLACEMENT_3D ( 'NONE', #53, #258, #159 ) ;
#84 = CARTESIAN_POINT ( 'NONE',  ( 5.000000000000002665, 5.000000000000000000, 5.000000000000000000 ) ) ;
#85 = CARTESIAN_POINT ( 'NONE',  ( 5.000000000000000888, -5.000000000000000000, 5.000000000000000000 ) ) ;
#86 = EDGE_LOOP ( 'NONE', ( #31, #197, #16, #93 ) ) ;
#87 = EDGE_LOOP ( 'NONE', ( #9, #71, #264, #220 ) ) ;
#88 = ORIENTED_EDGE ( 'NONE', *, *, #177, .T. ) ;
#89 = EDGE_CURVE ( 'NONE', #310, #320, #292, .T. ) ;
#90 = ADVANCED_FACE ( 'NONE', ( #63 ), #125, .F. ) ;
#91 = ORIENTED_EDGE ( 'NONE', *, *, #137, .F. ) ;
#92 = APPROVAL_PERSON_ORGANIZATION ( #40, #280, #55 ) ;
#93 = ORIENTED_EDGE ( 'NONE', *, *, #114, .T. ) ;
#94 = FACE_OUTER_BOUND ( 'NONE', #143, .T. ) ;
#95 = DIRECTION ( 'NONE',  ( 1.734723475976807094E-16, 1.000000000000000000, -0.000000000000000000 ) ) ;
#96 = PERSON_AND_ORGANIZATION ( #51, #149 ) ;
#97 = CARTESIAN_POINT ( 'NONE',  ( -4.999999999999999112, 5.000000000000001776, -5.000000000000000000 ) ) ;
#98 = APPROVAL_DATE_TIME ( #301, #321 ) ;
#99 = DIRECTION ( 'NONE',  ( 2.220446049250313081E-16, 1.000000000000000000, 0.000000000000000000 ) ) ;
#100 = COORDINATED_UNIVERSAL_TIME_OFFSET ( 8, 0, .AHEAD. ) ;
#101 = DIRECTION ( 'NONE',  ( 2.220446049250313081E-16, 1.000000000000000000, 0.000000000000000000 ) ) ;
#102 = CARTESIAN_POINT ( 'NONE',  ( -5.000000000000000888, -4.999999999999998224, -5.000000000000000000 ) ) ;
#103 = CARTESIAN_POINT ( 'NONE',  ( 5.000000000000000888, 5.000000000000001776, 5.000000000000000000 ) ) ;
#104 = AXIS2_PLACEMENT_3D ( 'NONE', #153, #273, #145 ) ;
#105 = APPROVAL ( #205, 'UNSPECIFIED' ) ;
#106 = CARTESIAN_POINT ( 'NONE',  ( -4.999999999999999112, -5.000000000000000000, 5.000000000000000000 ) ) ;
#107 = CC_DESIGN_PERSON_AND_ORGANIZATION_ASSIGNMENT ( #276, #254, ( #121 ) ) ;
#108 = VECTOR ( 'NONE', #27, 1000.000000000000000 ) ;
#109 = PERSON_AND_ORGANIZATION_ROLE ( 'design_owner' ) ;
#110 = ORIENTED_EDGE ( 'NONE', *, *, #261, .T. ) ;
#111 = PLANE ( 'NONE',  #235 ) ;
#112 = VERTEX_POINT ( 'NONE', #223 ) ;
#113 = VECTOR ( 'NONE', #174, 1000.000000000000000 ) ;
#114 = EDGE_CURVE ( 'NONE', #286, #309, #36, .T. ) ;
#115 = ORIENTED_EDGE ( 'NONE', *, *, #183, .F. ) ;
#116 = MANIFOLD_SOLID_BREP ( 'Í¹Ì¨-À', #14 ) ;
#117 = EDGE_LOOP ( 'NONE', ( #266, #115, #35, #21 ) ) ;
#118 = MANIFOLD_SOLID_BREP ( '¾µÏ', #58 ) ;
#119 = ORIENTED_EDGE ( 'NONE', *, *, #30, .F. ) ;
#120 = DIRECTION ( 'NONE',  ( 1.734723475976807094E-16, 1.000000000000000000, -0.000000000000000000 ) ) ;
#121 = PRODUCT_DEFINITION_FORMATION_WITH_SPECIFIED_SOURCE ( 'ANY', '', #165, .NOT_KNOWN. ) ;
#122 = MECHANICAL_CONTEXT ( 'NONE', #26, 'mechanical' ) ;
#123 = CARTESIAN_POINT ( 'NONE',  ( -5.000000000000000888, -4.999999999999998224, 5.000000000000000000 ) ) ;
#124 = APPROVAL_STATUS ( 'not_yet_approved' ) ;
#125 = PLANE ( 'NONE',  #139 ) ;
#126 = CARTESIAN_POINT ( 'NONE',  ( 5.000000000000000888, 5.000000000000001776, 5.000000000000000000 ) ) ;
#127 = DATE_TIME_ROLE ( 'classification_date' ) ;
#128 = AXIS2_PLACEMENT_3D ( 'NONE', #192, #29, #146 ) ;
#129 = EDGE_CURVE ( 'NONE', #320, #112, #318, .T. ) ;
#130 = VERTEX_POINT ( 'NONE', #176 ) ;
#131 = PERSON_AND_ORGANIZATION_ROLE ( 'classification_officer' ) ;
#132 = CARTESIAN_POINT ( 'NONE',  ( 5.000000000000002665, 5.000000000000000000, -5.000000000000000000 ) ) ;
#133 = DIRECTION ( 'NONE',  ( -4.857225732735059864E-17, -1.000000000000000000, 0.000000000000000000 ) ) ;
#134 = EDGE_CURVE ( 'NONE', #170, #130, #315, .T. ) ;
#135 = CARTESIAN_POINT ( 'NONE',  ( 5.000000000000002665, 5.000000000000000000, 5.000000000000000000 ) ) ;
#136 = LINE ( 'NONE', #135, #142 ) ;
#137 = EDGE_CURVE ( 'NONE', #291, #217, #246, .T. ) ;
#138 = LINE ( 'NONE', #199, #70 ) ;
#139 = AXIS2_PLACEMENT_3D ( 'NONE', #123, #42, #256 ) ;
#140 = CARTESIAN_POINT ( 'NONE',  ( -4.999999999999999112, -5.000000000000000000, 5.000000000000000000 ) ) ;
#141 = FACE_OUTER_BOUND ( 'NONE', #117, .T. ) ;
#142 = VECTOR ( 'NONE', #185, 1000.000000000000000 ) ;
#143 = EDGE_LOOP ( 'NONE', ( #195, #167, #213, #200 ) ) ;
#144 = ADVANCED_FACE ( 'NONE', ( #94 ), #271, .F. ) ;
#145 = DIRECTION ( 'NONE',  ( 1.000000000000000000, 0.000000000000000000, 0.000000000000000000 ) ) ;
#146 = DIRECTION ( 'NONE',  ( 1.000000000000000000, 0.000000000000000000, 0.000000000000000000 ) ) ;
#147 = ORIENTED_EDGE ( 'NONE', *, *, #89, .F. ) ;
#148 = CARTESIAN_POINT ( 'NONE',  ( 5.000000000000000888, 5.000000000000001776, 5.000000000000000000 ) ) ;
#149 = ORGANIZATION ( 'UNSPECIFIED', 'UNSPECIFIED', '' ) ;
#150 = CARTESIAN_POINT ( 'NONE',  ( 5.000000000000002665, 5.000000000000000000, 5.000000000000000000 ) ) ;
#151 = CARTESIAN_POINT ( 'NONE',  ( 5.000000000000000888, -5.000000000000000000, 5.000000000000000000 ) ) ;
#152 = PERSON_AND_ORGANIZATION ( #51, #149 ) ;
#153 = CARTESIAN_POINT ( 'NONE',  ( 0.000000000000000000, 0.000000000000000000, 5.000000000000000000 ) ) ;
#154 = PERSON_AND_ORGANIZATION ( #51, #149 ) ;
#155 = CARTESIAN_POINT ( 'NONE',  ( -4.999999999999999112, -5.000000000000000000, 5.000000000000000000 ) ) ;
#156 = CARTESIAN_POINT ( 'NONE',  ( 5.000000000000002665, 5.000000000000000000, -5.000000000000000000 ) ) ;
#157 = PLANE ( 'NONE',  #34 ) ;
#158 = PRODUCT_RELATED_PRODUCT_CATEGORY ( 'detail', '', ( #165 ) ) ;
#159 = DIRECTION ( 'NONE',  ( 1.000000000000000000, 0.000000000000000000, 0.000000000000000000 ) ) ;
#160 = VECTOR ( 'NONE', #281, 1000.000000000000000 ) ;
#161 = EDGE_CURVE ( 'NONE', #130, #286, #225, .T. ) ;
#162 = COORDINATED_UNIVERSAL_TIME_OFFSET ( 8, 0, .AHEAD. ) ;
#163 = DIRECTION ( 'NONE',  ( 0.7071067811865474617, -0.7071067811865475727, 0.000000000000000000 ) ) ;
#164 = CC_DESIGN_DATE_AND_TIME_ASSIGNMENT ( #76, #180, ( #6 ) ) ;
#165 = PRODUCT ( 'BK7-LPBSC-10-633', 'BK7-LPBSC-10-633', '', ( #122 ) ) ;
#166 = EDGE_LOOP ( 'NONE', ( #222, #91, #243 ) ) ;
#167 = ORIENTED_EDGE ( 'NONE', *, *, #221, .F. ) ;
#168 = PLANE ( 'NONE',  #28 ) ;
#169 =( LENGTH_UNIT ( ) NAMED_UNIT ( * ) SI_UNIT ( .MILLI., .METRE. ) );
#170 = VERTEX_POINT ( 'NONE', #151 ) ;
#171 = CARTESIAN_POINT ( 'NONE',  ( -4.999999999999999112, -5.000000000000000000, 5.000000000000000000 ) ) ;
#172 = APPLICATION_PROTOCOL_DEFINITION ( 'international standard', 'config_control_design', 1994, #184 ) ;
#173 = DIRECTION ( 'NONE',  ( -0.7071067811865475727, -0.7071067811865474617, 0.000000000000000000 ) ) ;
#174 = DIRECTION ( 'NONE',  ( 1.000000000000000000, 0.000000000000000000, 0.000000000000000000 ) ) ;
#175 = SHAPE_DEFINITION_REPRESENTATION ( #242, #210 ) ;
#176 = CARTESIAN_POINT ( 'NONE',  ( 5.000000000000002665, 5.000000000000000000, 5.000000000000000000 ) ) ;
#177 = EDGE_CURVE ( 'NONE', #193, #112, #77, .T. ) ;
#178 = PERSON_AND_ORGANIZATION_ROLE ( 'creator' ) ;
#179 = LINE ( 'NONE', #236, #160 ) ;
#180 = DATE_TIME_ROLE ( 'creation_date' ) ;
#181 = LOCAL_TIME ( 11, 10, 22.00000000000000000, #1 ) ;
#182 = LOCAL_TIME ( 11, 10, 22.00000000000000000, #43 ) ;
#183 = EDGE_CURVE ( 'NONE', #130, #217, #136, .T. ) ;
#184 = APPLICATION_CONTEXT ( 'configuration controlled 3d designs of mechanical parts and assemblies' ) ;
#185 = DIRECTION ( 'NONE',  ( -0.000000000000000000, -0.000000000000000000, -1.000000000000000000 ) ) ;
#186 = DIRECTION ( 'NONE',  ( 2.220446049250313081E-16, 1.000000000000000000, 0.000000000000000000 ) ) ;
#187 = DIRECTION ( 'NONE',  ( 2.220446049250313081E-16, 1.000000000000000000, 0.000000000000000000 ) ) ;
#188 = CC_DESIGN_APPROVAL ( #105, ( #121 ) ) ;
#189 = FACE_OUTER_BOUND ( 'NONE', #288, .T. ) ;
#190 = CARTESIAN_POINT ( 'NONE',  ( 5.000000000000000888, -5.000000000000000000, -5.000000000000000000 ) ) ;
#191 = EDGE_CURVE ( 'NONE', #11, #193, #80, .T. ) ;
#192 = CARTESIAN_POINT ( 'NONE',  ( 0.000000000000000000, 0.000000000000000000, 0.000000000000000000 ) ) ;
#193 = VERTEX_POINT ( 'NONE', #238 ) ;
#194 = VECTOR ( 'NONE', #120, 1000.000000000000000 ) ;
#195 = ORIENTED_EDGE ( 'NONE', *, *, #177, .F. ) ;
#196 = EDGE_LOOP ( 'NONE', ( #147, #119, #218 ) ) ;
#197 = ORIENTED_EDGE ( 'NONE', *, *, #317, .F. ) ;
#198 = VECTOR ( 'NONE', #75, 1000.000000000000000 ) ;
#199 = CARTESIAN_POINT ( 'NONE',  ( -4.999999999999999112, 5.000000000000001776, 5.000000000000000000 ) ) ;
#200 = ORIENTED_EDGE ( 'NONE', *, *, #129, .T. ) ;
#201 = LINE ( 'NONE', #19, #25 ) ;
#202 = CARTESIAN_POINT ( 'NONE',  ( 5.000000000000002665, 5.000000000000000000, 5.000000000000000000 ) ) ;
#203 = DATE_AND_TIME ( #296, #304 ) ;
#204 = VECTOR ( 'NONE', #23, 1000.000000000000000 ) ;
#205 = APPROVAL_STATUS ( 'not_yet_approved' ) ;
#206 = ORIENTED_EDGE ( 'NONE', *, *, #191, .F. ) ;
#207 = DATE_AND_TIME ( #251, #250 ) ;
#208 = EDGE_LOOP ( 'NONE', ( #206, #289, #33, #65 ) ) ;
#209 = APPROVAL_DATE_TIME ( #306, #280 ) ;
#210 = ADVANCED_BREP_SHAPE_REPRESENTATION ( 'BK7-LPBSC-10-633', ( #116, #118, #128 ), #239 ) ;
#211 = VECTOR ( 'NONE', #186, 1000.000000000000000 ) ;
#212 = DIRECTION ( 'NONE',  ( -0.7071067811865475727, -0.7071067811865474617, 0.000000000000000000 ) ) ;
#213 = ORIENTED_EDGE ( 'NONE', *, *, #89, .T. ) ;
#214 = PLANE ( 'NONE',  #83 ) ;
#215 = DIRECTION ( 'NONE',  ( -0.000000000000000000, -0.000000000000000000, -1.000000000000000000 ) ) ;
#216 = CARTESIAN_POINT ( 'NONE',  ( 5.000000000000000888, 5.000000000000001776, 5.000000000000000000 ) ) ;
#217 = VERTEX_POINT ( 'NONE', #156 ) ;
#218 = ORIENTED_EDGE ( 'NONE', *, *, #81, .F. ) ;
#219 = VECTOR ( 'NONE', #297, 1000.000000000000000 ) ;
#220 = ORIENTED_EDGE ( 'NONE', *, *, #298, .T. ) ;
#221 = EDGE_CURVE ( 'NONE', #310, #193, #50, .T. ) ;
#222 = ORIENTED_EDGE ( 'NONE', *, *, #255, .F. ) ;
#223 = CARTESIAN_POINT ( 'NONE',  ( -5.000000000000000888, -4.999999999999998224, -5.000000000000000000 ) ) ;
#224 = AXIS2_PLACEMENT_3D ( 'NONE', #148, #252, #249 ) ;
#225 = LINE ( 'NONE', #202, #279 ) ;
#226 = CC_DESIGN_PERSON_AND_ORGANIZATION_ASSIGNMENT ( #96, #178, ( #6 ) ) ;
#227 = CALENDAR_DATE ( 2020, 22, 12 ) ;
#228 = CARTESIAN_POINT ( 'NONE',  ( 5.000000000000002665, 5.000000000000000000, 5.000000000000000000 ) ) ;
#229 = PERSON_AND_ORGANIZATION ( #51, #149 ) ;
#230 = DIRECTION ( 'NONE',  ( -0.000000000000000000, -0.000000000000000000, -1.000000000000000000 ) ) ;
#231 = VECTOR ( 'NONE', #73, 1000.000000000000000 ) ;
#232 = PLANE ( 'NONE',  #104 ) ;
#233 = FACE_OUTER_BOUND ( 'NONE', #208, .T. ) ;
#234 = DIRECTION ( 'NONE',  ( -1.000000000000000000, 4.857225732735059864E-17, 0.000000000000000000 ) ) ;
#235 = AXIS2_PLACEMENT_3D ( 'NONE', #150, #163, #307 ) ;
#236 = CARTESIAN_POINT ( 'NONE',  ( -4.999999999999999112, -5.000000000000000000, -5.000000000000000000 ) ) ;
#237 = ADVANCED_FACE ( 'NONE', ( #233 ), #259, .F. ) ;
#238 = CARTESIAN_POINT ( 'NONE',  ( 5.000000000000000888, 5.000000000000001776, -5.000000000000000000 ) ) ;
#239 =( GEOMETRIC_REPRESENTATION_CONTEXT ( 3 ) GLOBAL_UNCERTAINTY_ASSIGNED_CONTEXT ( ( #300 ) ) GLOBAL_UNIT_ASSIGNED_CONTEXT ( ( #169, #269, #305 ) ) REPRESENTATION_CONTEXT ( 'NONE', 'WORKASPACE' ) );
#240 = CARTESIAN_POINT ( 'NONE',  ( -5.000000000000000888, -4.999999999999998224, 5.000000000000000000 ) ) ;
#241 = ORIENTED_EDGE ( 'NONE', *, *, #191, .T. ) ;
#242 = PRODUCT_DEFINITION_SHAPE ( 'NONE', 'NONE',  #6 ) ;
#243 = ORIENTED_EDGE ( 'NONE', *, *, #265, .F. ) ;
#244 = CC_DESIGN_APPROVAL ( #321, ( #295 ) ) ;
#245 = ORIENTED_EDGE ( 'NONE', *, *, #255, .T. ) ;
#246 = LINE ( 'NONE', #12, #194 ) ;
#247 = LINE ( 'NONE', #85, #267 ) ;
#248 = ORIENTED_EDGE ( 'NONE', *, *, #114, .F. ) ;
#249 = DIRECTION ( 'NONE',  ( 0.7071067811865475727, 0.7071067811865474617, 0.000000000000000000 ) ) ;
#250 = LOCAL_TIME ( 11, 10, 22.00000000000000000, #274 ) ;
#251 = CALENDAR_DATE ( 2020, 22, 12 ) ;
#252 = DIRECTION ( 'NONE',  ( -0.7071067811865474617, 0.7071067811865475727, 0.000000000000000000 ) ) ;
#253 = DIRECTION ( 'NONE',  ( 0.000000000000000000, -0.000000000000000000, 1.000000000000000000 ) ) ;
#254 = PERSON_AND_ORGANIZATION_ROLE ( 'design_supplier' ) ;
#255 = EDGE_CURVE ( 'NONE', #217, #309, #278, .T. ) ;
#256 = DIRECTION ( 'NONE',  ( 0.000000000000000000, 0.000000000000000000, 1.000000000000000000 ) ) ;
#257 = CC_DESIGN_APPROVAL ( #280, ( #6 ) ) ;
#258 = DIRECTION ( 'NONE',  ( -0.000000000000000000, 0.000000000000000000, 1.000000000000000000 ) ) ;
#259 = PLANE ( 'NONE',  #8 ) ;
#260 = CARTESIAN_POINT ( 'NONE',  ( 0.000000000000000000, 0.000000000000000000, 5.000000000000000000 ) ) ;
#261 = EDGE_CURVE ( 'NONE', #112, #11, #303, .T. ) ;
#262 = CALENDAR_DATE ( 2020, 22, 12 ) ;
#263 = DIRECTION ( 'NONE',  ( 0.000000000000000000, 1.000000000000000000, 0.000000000000000000 ) ) ;
#264 = ORIENTED_EDGE ( 'NONE', *, *, #81, .T. ) ;
#265 = EDGE_CURVE ( 'NONE', #309, #291, #179, .T. ) ;
#266 = ORIENTED_EDGE ( 'NONE', *, *, #137, .T. ) ;
#267 = VECTOR ( 'NONE', #215, 1000.000000000000000 ) ;
#268 = CARTESIAN_POINT ( 'NONE',  ( 0.000000000000000000, 0.000000000000000000, -5.000000000000000000 ) ) ;
#269 =( NAMED_UNIT ( * ) PLANE_ANGLE_UNIT ( ) SI_UNIT ( $, .RADIAN. ) );
#270 = VERTEX_POINT ( 'NONE', #48 ) ;
#271 = PLANE ( 'NONE',  #224 ) ;
#272 = PLANE ( 'NONE',  #319 ) ;
#273 = DIRECTION ( 'NONE',  ( -0.000000000000000000, 0.000000000000000000, 1.000000000000000000 ) ) ;
#274 = COORDINATED_UNIVERSAL_TIME_OFFSET ( 8, 0, .AHEAD. ) ;
#275 = FACE_OUTER_BOUND ( 'NONE', #15, .T. ) ;
#276 = PERSON_AND_ORGANIZATION ( #51, #149 ) ;
#277 = ADVANCED_FACE ( 'NONE', ( #52 ), #157, .T. ) ;
#278 = LINE ( 'NONE', #132, #198 ) ;
#279 = VECTOR ( 'NONE', #173, 1000.000000000000000 ) ;
#280 = APPROVAL ( #4, 'UNSPECIFIED' ) ;
#281 = DIRECTION ( 'NONE',  ( 1.000000000000000000, 0.000000000000000000, 0.000000000000000000 ) ) ;
#282 = FACE_OUTER_BOUND ( 'NONE', #166, .T. ) ;
#283 = CC_DESIGN_PERSON_AND_ORGANIZATION_ASSIGNMENT ( #152, #131, ( #295 ) ) ;
#284 = LOCAL_TIME ( 11, 10, 22.00000000000000000, #162 ) ;
#285 = ORIENTED_EDGE ( 'NONE', *, *, #62, .T. ) ;
#286 = VERTEX_POINT ( 'NONE', #106 ) ;
#287 = ADVANCED_FACE ( 'NONE', ( #282 ), #214, .F. ) ;
#288 = EDGE_LOOP ( 'NONE', ( #245, #248, #38, #60 ) ) ;
#289 = ORIENTED_EDGE ( 'NONE', *, *, #298, .F. ) ;
#290 = ADVANCED_FACE ( 'NONE', ( #22 ), #7, .F. ) ;
#291 = VERTEX_POINT ( 'NONE', #190 ) ;
#292 = LINE ( 'NONE', #126, #219 ) ;
#293 = DIRECTION ( 'NONE',  ( 0.000000000000000000, -0.000000000000000000, 1.000000000000000000 ) ) ;
#294 = FACE_OUTER_BOUND ( 'NONE', #61, .T. ) ;
#295 = SECURITY_CLASSIFICATION ( '', '', #316 ) ;
#296 = CALENDAR_DATE ( 2020, 22, 12 ) ;
#297 = DIRECTION ( 'NONE',  ( -0.7071067811865475727, -0.7071067811865474617, 0.000000000000000000 ) ) ;
#298 = EDGE_CURVE ( 'NONE', #270, #11, #138, .T. ) ;
#299 = PERSON_AND_ORGANIZATION_ROLE ( 'creator' ) ;
#300 = UNCERTAINTY_MEASURE_WITH_UNIT (LENGTH_MEASURE( 1.000000000000000082E-05 ), #169, 'distance_accuracy_value', 'NONE');
#301 = DATE_AND_TIME ( #72, #181 ) ;
#302 = CARTESIAN_POINT ( 'NONE',  ( 5.000000000000000888, 5.000000000000001776, -5.000000000000000000 ) ) ;
#303 = LINE ( 'NONE', #102, #211 ) ;
#304 = LOCAL_TIME ( 11, 10, 22.00000000000000000, #100 ) ;
#305 =( NAMED_UNIT ( * ) SI_UNIT ( $, .STERADIAN. ) SOLID_ANGLE_UNIT ( ) );
#306 = DATE_AND_TIME ( #262, #284 ) ;
#307 = DIRECTION ( 'NONE',  ( 0.7071067811865475727, 0.7071067811865474617, 0.000000000000000000 ) ) ;
#308 = ADVANCED_FACE ( 'NONE', ( #141 ), #272, .F. ) ;
#309 = VERTEX_POINT ( 'NONE', #64 ) ;
#310 = VERTEX_POINT ( 'NONE', #216 ) ;
#311 = ADVANCED_FACE ( 'NONE', ( #189 ), #111, .F. ) ;
#312 = APPROVAL_PERSON_ORGANIZATION ( #154, #105, #45 ) ;
#313 = ORIENTED_EDGE ( 'NONE', *, *, #134, .T. ) ;
#314 = VECTOR ( 'NONE', #230, 1000.000000000000000 ) ;
#315 = LINE ( 'NONE', #228, #41 ) ;
#316 = SECURITY_CLASSIFICATION_LEVEL ( 'unclassified' ) ;
#317 = EDGE_CURVE ( 'NONE', #170, #291, #247, .T. ) ;
#318 = LINE ( 'NONE', #39, #231 ) ;
#319 = AXIS2_PLACEMENT_3D ( 'NONE', #84, #59, #56 ) ;
#320 = VERTEX_POINT ( 'NONE', #240 ) ;
#321 = APPROVAL ( #124, 'UNSPECIFIED' ) ;
ENDSEC;
END-ISO-10303-21;
